See You At The Bottom Guitar Tab

I’ll eventually try to merge these in with the site, but for now, they’ll be news updates.

See You At The Bottom
Tuning – Drop C

| --------------
| --------------
| --------------
| --------------
| -0-0-2h3-2----
| -0-0-2h3-2----
Intro (semi-distorted) Play 4 Times
| --------------------------------------------------
| --------------------------------------------------
| --------------------------------------------------
| --------------------------------------------------
| -0-0-2h3-2po0--0-0-2h3-2po0-0-0-2h3-2po0-2-2-2-2--
| -0-0-2h3-2po0--0-0-2h3-2po0-0-0-2h3-2po0-2-2-2-2--
Intro (Distorted) Continued... Play 2 Times

| --------------------------------------------------
| -3-3-----------3-3----------3-3-------------------
| -2-2-----------2-2----------2-2-------------------
| -0-0-----------0-0----------0-0-------------------
| -0-0-2h3-2po0--0-0-2h3-2po0-0-0-2h3-2po0-2-2-2-2--
| -0-0-2h3-2po0--0-0-2h3-2po0-0-0-2h3-2po0-2-2-2-2--
Intro (Distorted) Continued... Play 2 Times

| --------------------------------------------
| -3-3--8/9\8\6--3-3--8/9\8\6--6-6--8/9\8\6\9-
| -2-2--7/8\7\5--2-2--7/8\7\5--5-5--7/8\7\5\8-
| -0-0----------------------------------------
| -0-0----------------------------------------
| -0-0----------------------------------------
Intro - Guitar 2

| -------------------------------------------------
| -----------------------------------3-3-3--3-3-3--
| -----------------------------------2-2-2--2-2-2--
| -5--5--5-5--5/10--10--10-10-10--0--0-0-0--0-0-0--
| -5--5--5-5--5/-8---8---8--8--8--0--0-0-0--0-0-0--
| -5--5--5-5--5/-8---8---8--8--8--0--0-0-0--0-0-0--
Chorus - Guitar 1

| ----------------------------------------------------------------
| -----------------------------------3-3-3------------------------
| -----------------------------------2-2-2--13-13\12-12\11-11\10--
| -5--5--5-5--5/10--10--10-10-10--0--0-0-0------------------------
| -5--5--5-5--5/-8---8---8--8--8--0--0-0-0--11-11\10-10\-9--9\-8--
| -5--5--5-5--5/-8---8---8--8--8--0--0-0-0------------------------
Chorus - Guitar 2

| ----------------------------------------------------------------------------------
| ----------------------------------------------------------------------------------
| ----------------------------------------------------------------------------------
| ----------------------------------------------------------------------------------
| ----------------------------------------------------------------------------------
| -0-0-0--10--10\9--9\8--8\7--7\5--5\3--3/5--0-0-0--10--10\9--9\8--8\7--7\5--5\3/9--
Bridge Part 1 (Play 2 Times)

| ----------------------------------------------------------------------------------
| ----------------------------------------------------------------------------------
| ----------------------------------------------------------------------------------
| ----------------------------------------------------------------------------------
| -0-0-0--10--10\9--9\8--8\7--7\5--5\3--3/5--0-0-0--10--10\9--9\8--8\7--7\5--5\3/9--
| -0-0-0--10--10\9--9\8--8\7--7\5--5\3--3/5--0-0-0--10--10\9--9\8--8\7--7\5--5\3/9--
Bridge Part 1 (Play 2 Times)

| ----------------------------------
| ----------------------------------
| ------------------------------7b--
| -6-6-6-6-6-6-6-6-6-6-6-6-6--------
| -6-6-6-6-6-6-6-6-6-6-6-6-6--------
| -6-6-6-6-6-6-6-6-6-6-6-6-6--------
Bridge (Continued...)

| --------------------------------------------------
| --------------------------------------------------
| --------------------------------------------------
| --------------------------------------------------
| -0-0-2h3-2po0--0-0-2h3-2po0-0-0-2h3-2po0-2-2-2-2--
| -0-0-2h3-2po0--0-0-2h3-2po0-0-0-2h3-2po0-2-2-2-2--
Outro (Distorted) Continued... Play 2 Times

| --------------------------------------------------
| -3-3-----------3-3----------3-3-------------------
| -2-2-----------2-2----------2-2-------------------
| -0-0-----------0-0----------0-0-------------------
| -0-0-2h3-2po0--0-0-2h3-2po0-0-0-2h3-2po0-2-2-2-2--
| -0-0-2h3-2po0--0-0-2h3-2po0-0-0-2h3-2po0-2-2-2-2--
Outro (Distorted) Continued... Play 2 Times

| --------------------------------------------
| -3-3--8/9\8\6--3-3--8/9\8\6--6-6--8/9\8\6\9-
| -2-2--7/8\7\5--2-2--7/8\7\5--5-5--7/8\7\5\8-
| -0-0----------------------------------------
| -0-0----------------------------------------
| -0-0----------------------------------------
Outro - Guitar 2

Leave a Reply

Your email address will not be published. Required fields are marked *